schematy wzmacniaczy gitarowych

Sciezka tremolo / sch / Artykuly / Gitary / Tabulatury czyli czytanie tabulatorow [doc]

Widok ikon Widok miniatur Do artykulu

Kategoria /Artykuly/Gitary

    Tabulatury czyli czytanie tabulatorów [doc]

    Zacznijmy od Tabulatury - tabulatura to schemat grania na gitarze wymyślony dla osób nie lubiących zapisu nutowego. Ktoś w renesansie wpadł na pomysł, ze tak będzie łatwiej dla laików...

    Mamy 6 strun w gitarze - standardowej

    e--------------------------------
    B*------------------------------- 
    G--------------------------------
    D--------------------------------
    A--------------------------------
    E--------------------------------


    * - B anglosaskie = H w systemie europejskim

    Dla uproszczenia jest to do góry nogami... Ale upraszcza to sprawę gdyż, jak patrzymy się na gitarę "palcując" po gryfie to właśnie widzimy ją do góry nogami.

    Nuty zapisuje się w formie cyferek od 0 do 24 (zazwyczaj - chyba ze ktoś ma więcej progów w gitarze). 0 - oznacza pusta strune 1- kliknięcie danej struny na 1 progu 2, na drugim i tak dalej...

    Czytamy od lewej do prawej... jak kolejne klatki filmu...


    e------------------0----------------
    B---------------0-----0-------------
    G------------0-----------0----------
    D---------0-----------------0-------
    A------0-----------------------0----
    E---0-----------------------------0-

    Takie cos oznacza zagranie pustych strun od najgrubszej E do najcieńszej e i z powrotem do najgrubszej.


    e------------------0----------------
    B---------------1-----1-------------
    G------------2-----------2----------
    D---------2-----------------2-------
    A------0-----------------------0----
    E-----------------------------------

    Takie cos z kolei oznacza zagranie pustej struny A - struny D na 2 progu (dźwiek E), struny G na drugim, B na pierwszym oraz pustej struny e (cienkiej) po czym wracamy po ścieżce z powrotem klikając strunki na progach 1,2,2 oraz 0.
    Jak widać nie jest to żadna filozofia...

    Czasowe długości pomiędzy nutkami.

    1,2,3 - oznacza różne odleglości między nutkami (tempo)

          1----------->   2-->       3-->   
                        |          |

    e--------------------0----------0-----
    B------------------1--1---------1-----
    G--------------2-------2--------2-----
    D----------2------------2-------2-----
    A------0-----------------0------0-----
    E-------------------------------------

    Zazwyczaj tabulatury są do utworów, które znamy i wiemy jaką mają melodie i rytmikę, ale, żeby to uwydatnić i ni mylić tego na tabulaturach wpadnięto na pomysł, że odległości między dźwiękami będą odpowiadały czasowi między nimi... 

    Czyli 1--> oznacza dźwięki grane powoli 2--> szybciej a 3--> w jednym momencie - tworząc akord - czyli współbrzmienie co najmniej 3 niepowtarzających się tonów.

    Facebook Twitter Stumble it Email More..




    kod: heavy3

    Komentarze i pytania

    0 komentarzy dla tego widoku